6/04/2010

www.livemusic.mn

www.livemusic.mn сайт хийгдсэн тийшээ ороорой. Удахгүй дагуулаад хуучин байсан www.guitar.mn шиг дан гитарын сайт хийгдэх байх

3/23/2010

Нотны үргэлжлэх хугацаа, Хэмнэл, Хэм, Хэмжээ, Такт

Нотнууд нь урт богиноороо (үргэлжлэх дуугарах хэмжээ) ялгаатай байдаг. Доорхи зураг дээр дараагийн нот болгон нь өмнөхөөсөө 2 дахин богино байгааг харуулж байна.
- Бүтэн нот

- Хагас нот

- Дөрөвт нот

- Наймт нот

- Арван зургаат нот

- Гучин хоёрт нот

2/04/2010

Гитар Таб Аккорд /Tab, Chord/ хэрхэн унших талаар.


Гитар таб унших үндэс

Гитарын Таб тэмдэглэгээ нь элдэв НОТны мэдлэггүй ч интернэтээс хүссэн дуугаа хайж олоод сурахад тус дөхөм болох эд юм байгаан. Ойлгодог болохын тулд эхлээд энэ зурааснуудтай найзлах хэрэгтэй болно доо.
Энэ нь тун хялбар бөгөөд доорх зураг дээр байгаа шиг харуулаад зааж байна гэсэн үг.

Ухаандаа Хамгийн доод зураас нь хамгийн ДЭЭД талын БҮДҮҮН утас, харин хамгийн дээд талын зураас нь хамгийн ДООД талын НАРИЙН утас бөлгөө.
Энд байгаа үсэгнүүд юу вэ гэжүү ? Эдгээр нь уг утасны ямар өнгөтэй байдгын зааж өгж байгаа.(Зөв хөглөсөн бол) Хамгийн дээд талын БҮДҮҮНЭЭ утас чинь E буюу Ми ноттой байдаг, тэгээд A - Ля, D - Ре, G - соль, B - си, жижиг e гээд дахиад юун ми нот гэрээд ирэв гэвэл доод октавийн ми юм байгаан гитарын утас үндсэндээ ийм хөгтэй байдаг.
/Дараа яагаад ийм байгаа Яаж хөглөдөг талаар бичнэ/


e--------------------------------
B--------------------------------
G--------------------------------
D--------------------------------
A--------------------------------
E--------------------------------

За энэ тоонууд ингээд гараад ирвэл та бүхний сурж байгаа ямар нэг дууны таб байна гэсэн үг. 2 гээд байгаа нь 2 р фрэт дээр буюу Дээрээсээ 2 дахь БҮДҮҮНЭЭ утасны толгой талаасаа 2 дахь дээр дарна гэсэн үг /бүүр нарийвчилвал эхний таарах нарийн төмөр дараагийн нарийн төмрийн хооронд - энэ зайг гитар дээр фрэт гэнэ/. Дарахдаа эхнээсээ таарж байгаа дарааллаар явна 2 2 2 гэж 3удаа дараа 4р фрэт дээр дараад 2р фрэт дээр дахиж дараад сул дарна. 0 гэж юу вэ гэвэл уг утсыг сул дарна гэсэн үг /Дарах гэдэг нь гитар дээрээ өвдөглөөд дарах биш баруун гараараа ПИКээр эсвэл Хуруугаараа татаж дуугаргахыг хэлнэ/. Энэ нь Нотоор бол ийм өнгүүд дарж байгаа B B B C# B A.


e-------------------------------
B-------------------------------
G-------------------------------
D-------------------------------
A--2--2--2--4--2--0------------
E-------------------------------

Тэгвэл Чорд (Chord) гэдэг чинь яадаг тэмдэг вэ?

Нэг эгнээнд жирийтэл зэрэгцүүлээд бичсэн байвал энэ нь аккорд буюу chord. Ухаандаа ритм тоглож байна гэсэн үг. Энэ таб дээр C буюу До chord бичсэн байна.


e--0----------------------------
B--1----------------------------
G--0----------------------------
D--2----------------------------
A--3----------------------------
E-------------------------------

Ингээд таб дээр чинь дарааллаад гараад ирвэл та 3 удаа угсран До барилтыг тоглоно.


e--0--0--0---------------------
B--1--1--1---------------------
G--0--0--0---------------------
D--2--2--2---------------------
A--3--3--3---------------------
E------------------------------

Ер нь тэгээд дуугаа сайн сонсоод өнгүүдээ яаг зөв хэмжээнд тоглоод явах хэрэгтэй. Солон маягийн таб иймэрхүү хэлбэртэй үргэлжлээд явна.


e-----------------------------
B-----------------------------
G-----------------------------
D-----------2---0---4---0-2--
A---------2-------2---2-------
E-0---3-4---------------------

Табны зарим нэмэлт тэмдэгнүүд

A Hammer On

Соло гитарын табууд сурж байхад чинь сонин сонин тэмдэглэгээнүүд гарж ирнэ.
Эхнийх нь hammer on. Үүнийг хоёр өнгөний голд h үсгээр бичиж тэмдэглэдэг.
Тоглохдоо 5 өнгө дээр утсаа дараад дараагийн хуруугаа шууд 7 дээр буулгаж дарна. Нэг даралтаар шүү. Эхний өнгө дуугаргаад шууд тэр дуугарж байгаа эрчинд нь дараагийн өнгийг дуугаргана гэсэн үг:


e----------------------5h7----
B------------------5h7--------
G--------------5h7------------
D----------5h7----------------
A------5h7--------------------
E--5h7------------------------

A Pull Off

Энэ нь hammerOn-ийг эсрэгээр хийдэг бөгөөд p үсгээр тэмдэглэнэ. Жишээ нь 7р фрэт дээр дунд хуруугаар дарж байгаад пик эсвэл хуруугаараа утсаа татаж дуугаргаад долоовроороо 5ийг дарж тэр дуугарж байгаа эрчинд нь 7 дээр байгаа дунд хуруугаа утаснаас өргөж авна.

Ер нь Hammer On, Pull Off 2ийг цугт нь голдуу хэрэглэдэг. 5h7p5 гэх маягаар.


e----------------------7p5----
B------------------7p5--------
G--------------7p5------------
D----------7p5----------------
A------7p5--------------------
E--7p5------------------------

A Slide-Up

Slide up -ийг ‘/’ тэмдэгээр тэмдэглэнэ. 7 дээр дараад 9 рүү тэр дарсан эрчиндээ гулгуулна. Хуруугаараа бүх замдаа таарах бүх утсан дээгүүрээ даран гүйлгэнэ.


e-----------------------------
B-----------------------------
G--7/9---7/9------------------
D--------------7/9---7/9------
A-----------------------------
E-----------------------------

A Slide-Down

Slide Down ‘\’ бол Slide Up -ийн эсрэг бөгөөд толгой тал руугаа гүйлгэнэ. 7 дээр дараад 5 руу хуруугаа дараастай чигээрээ гүйлгэнэ .


e-----------------------------
B-----------------------------
G--7/5---7/5------------------
D--------------7/5---7/5------
A-----------------------------
E-----------------------------

Vibrato

Vibrato нь бол утсаа дээшээ доошоо өргөж буулган уянгалуулан чичиргэх. ‘v’ болог ‘~’ тэмдэгээр тэмдэглэсэн байдаг.


e-----------------------------
B-----------------------------
G--7v-------------------------
D--------------------7~~~-----
A-----------------------------
E-----------------------------

Tapping

Tapping гэдэг нь Август Рааш кино дээр гардаг бацаан шиг зөвхөн яг тэр фрэт дээрээ дарж байгаа хуруугаа хүчтэй буулган дуугаргахыг хэлдэг. Баруун гараараа утсаа татахгүй.


e-----------------------------
B-----------------------------
G--7t---7t---7t---------------
D-----------------------------
A-----------------------------
E-----------------------------

Өнөөдөртөө ингээд дууслаа. Дараа та бүхэнд өөр зүйлсийг хүргэх болно